ISO-10303-21;
HEADER;
FILE_DESCRIPTION (( 'STEP AP203' ),
    '1' );
FILE_NAME ('CLP1M-SH-12 Øàéáà ïëîñêàÿ M12.STEP',
    '2016-02-12T06:13:37',
    ( '' ),
    ( '' ),
    'SwSTEP 2.0',
    'SolidWorks 2014',
    '' );
FILE_SCHEMA (( 'CONFIG_CONTROL_DESIGN' ));
ENDSEC;

DATA;
#1 = AXIS2_PLACEMENT_3D ( 'NONE', #105, #96, #111 ) ;
#2 = FACE_BOUND ( 'NONE', #124, .T. ) ;
#3 = EDGE_LOOP ( 'NONE', ( #152 ) ) ;
#4 = VERTEX_POINT ( 'NONE', #122 ) ;
#5 = CC_DESIGN_SECURITY_CLASSIFICATION ( #32, ( #41 ) ) ;
#6 = AXIS2_PLACEMENT_3D ( 'NONE', #114, #126, #119 ) ;
#7 = COORDINATED_UNIVERSAL_TIME_OFFSET ( 3, 0, .AHEAD. ) ;
#8 = AXIS2_PLACEMENT_3D ( 'NONE', #130, #70, #107 ) ;
#9 = AXIS2_PLACEMENT_3D ( 'NONE', #106, #100, #102 ) ;
#10 = PERSON_AND_ORGANIZATION ( #56, #76 ) ;
#11 = AXIS2_PLACEMENT_3D ( 'NONE', #115, #118, #127 ) ;
#12 = COORDINATED_UNIVERSAL_TIME_OFFSET ( 3, 0, .AHEAD. ) ;
#13 = CC_DESIGN_PERSON_AND_ORGANIZATION_ASSIGNMENT ( #143, #29, ( #41 ) ) ;
#14 = EDGE_CURVE ( 'NONE', #4, #4, #83, .T. ) ;
#15 = LOCAL_TIME ( 9, 13, 37.00000000000000000, #12 ) ;
#16 = EDGE_LOOP ( 'NONE', ( #72 ) ) ;
#17 = CC_DESIGN_PERSON_AND_ORGANIZATION_ASSIGNMENT ( #79, #53, ( #67 ) ) ;
#18 = PERSON_AND_ORGANIZATION ( #56, #76 ) ;
#19 = ADVANCED_FACE ( 'NONE', ( #161, #133 ), #82, .T. ) ;
#20 = EDGE_CURVE ( 'NONE', #39, #39, #135, .T. ) ;
#21 = SHAPE_DEFINITION_REPRESENTATION ( #156, #146 ) ;
#22 =( GEOMETRIC_REPRESENTATION_CONTEXT ( 3 ) GLOBAL_UNCERTAINTY_ASSIGNED_CONTEXT ( ( #104 ) ) GLOBAL_UNIT_ASSIGNED_CONTEXT ( ( #51, #50, #49 ) ) REPRESENTATION_CONTEXT ( 'NONE', 'WORKASPACE' ) );
#23 = EDGE_CURVE ( 'NONE', #168, #168, #78, .T. ) ;
#24 = APPROVAL_ROLE ( '' ) ;
#25 = APPROVAL_STATUS ( 'not_yet_approved' ) ;
#26 = DATE_TIME_ROLE ( 'classification_date' ) ;
#27 = PERSON_AND_ORGANIZATION_ROLE ( 'classification_officer' ) ;
#28 = SECURITY_CLASSIFICATION_LEVEL ( 'unclassified' ) ;
#29 = PERSON_AND_ORGANIZATION_ROLE ( 'design_supplier' ) ;
#30 = COORDINATED_UNIVERSAL_TIME_OFFSET ( 3, 0, .AHEAD. ) ;
#31 = PERSON_AND_ORGANIZATION_ROLE ( 'creator' ) ;
#32 = SECURITY_CLASSIFICATION ( '', '', #28 ) ;
#33 = APPROVAL_ROLE ( '' ) ;
#34 = APPROVAL_STATUS ( 'not_yet_approved' ) ;
#35 = DATE_TIME_ROLE ( 'creation_date' ) ;
#36 = PERSON_AND_ORGANIZATION_ROLE ( 'creator' ) ;
#37 = APPROVAL_ROLE ( '' ) ;
#38 = APPROVAL_STATUS ( 'not_yet_approved' ) ;
#39 = VERTEX_POINT ( 'NONE', #121 ) ;
#40 = APPLICATION_PROTOCOL_DEFINITION ( 'international standard', 'config_control_design', 1994, #42 ) ;
#41 = PRODUCT_DEFINITION_FORMATION_WITH_SPECIFIED_SOURCE ( 'ANY', '', #67, .NOT_KNOWN. ) ;
#42 = APPLICATION_CONTEXT ( 'configuration controlled 3d designs of mechanical parts and assemblies' ) ;
#43 = MECHANICAL_CONTEXT ( 'NONE', #48, 'mechanical' ) ;
#44 = APPLICATION_PROTOCOL_DEFINITION ( 'international standard', 'config_control_design', 1994, #48 ) ;
#45 = DIRECTION ( 'NONE',  ( 1.000000000000000000, 0.0000000000000000000, 0.0000000000000000000 ) ) ;
#46 = AXIS2_PLACEMENT_3D ( 'NONE', #123, #103, #93 ) ;
#47 = EDGE_CURVE ( 'NONE', #169, #169, #52, .T. ) ;
#48 = APPLICATION_CONTEXT ( 'configuration controlled 3d designs of mechanical parts and assemblies' ) ;
#49 =( NAMED_UNIT ( * ) SI_UNIT ( $, .STERADIAN. ) SOLID_ANGLE_UNIT ( ) );
#50 =( NAMED_UNIT ( * ) PLANE_ANGLE_UNIT ( ) SI_UNIT ( $, .RADIAN. ) );
#51 =( LENGTH_UNIT ( ) NAMED_UNIT ( * ) SI_UNIT ( .MILLI., .METRE. ) );
#52 = CIRCLE ( 'NONE', #1, 6.500000000000000900 ) ;
#53 = PERSON_AND_ORGANIZATION_ROLE ( 'design_owner' ) ;
#54 = ADVANCED_FACE ( 'NONE', ( #145, #2 ), #129, .F. ) ;
#55 = ORIENTED_EDGE ( 'NONE', *, *, #23, .F. ) ;
#56 = PERSON ( 'UNSPECIFIED', 'UNSPECIFIED', 'UNSPECIFIED', ('UNSPECIFIED'), ('UNSPECIFIED'), ('UNSPECIFIED') ) ;
#57 = FACE_BOUND ( 'NONE', #3, .T. ) ;
#58 = ORIENTED_EDGE ( 'NONE', *, *, #20, .F. ) ;
#59 = CC_DESIGN_PERSON_AND_ORGANIZATION_ASSIGNMENT ( #65, #27, ( #32 ) ) ;
#60 = DIRECTION ( 'NONE',  ( 0.0000000000000000000, 0.0000000000000000000, 1.000000000000000000 ) ) ;
#61 = CALENDAR_DATE ( 2016, 12, 2 ) ;
#62 = CARTESIAN_POINT ( 'NONE',  ( 12.00000000000000200, 0.0000000000000000000, 2.500000000000000000 ) ) ;
#63 = APPROVAL_PERSON_ORGANIZATION ( #110, #166, #33 ) ;
#64 = CALENDAR_DATE ( 2016, 12, 2 ) ;
#65 = PERSON_AND_ORGANIZATION ( #56, #76 ) ;
#66 = APPROVAL ( #25, 'UNSPECIFIED' ) ;
#67 = PRODUCT ( 'CLP1M-SH-12 Øàéáà ïëîñêàÿ M12', 'CLP1M-SH-12 Øàéáà ïëîñêàÿ M12', '', ( #43 ) ) ;
#68 = DATE_AND_TIME ( #95, #142 ) ;
#69 = AXIS2_PLACEMENT_3D ( 'NONE', #128, #85, #91 ) ;
#70 = DIRECTION ( 'NONE',  ( 0.0000000000000000000, 0.0000000000000000000, 1.000000000000000000 ) ) ;
#71 = CALENDAR_DATE ( 2016, 12, 2 ) ;
#72 = ORIENTED_EDGE ( 'NONE', *, *, #47, .T. ) ;
#73 = DESIGN_CONTEXT ( 'detailed design', #42, 'design' ) ;
#74 = PERSON_AND_ORGANIZATION ( #56, #76 ) ;
#75 = CC_DESIGN_APPROVAL ( #66, ( #32 ) ) ;
#76 = ORGANIZATION ( 'UNSPECIFIED', 'UNSPECIFIED', '' ) ;
#77 = AXIS2_PLACEMENT_3D ( 'NONE', #92, #98, #132 ) ;
#78 = CIRCLE ( 'NONE', #9, 12.00000000000000200 ) ;
#79 = PERSON_AND_ORGANIZATION ( #56, #76 ) ;
#80 = CYLINDRICAL_SURFACE ( 'NONE', #77, 6.500000000000000900 ) ;
#81 = PRODUCT_RELATED_PRODUCT_CATEGORY ( 'detail', '', ( #67 ) ) ;
#82 = CYLINDRICAL_SURFACE ( 'NONE', #6, 12.00000000000000200 ) ;
#83 = CIRCLE ( 'NONE', #11, 12.00000000000000200 ) ;
#84 = DATE_AND_TIME ( #61, #113 ) ;
#85 = DIRECTION ( 'NONE',  ( 0.0000000000000000000, 0.0000000000000000000, 1.000000000000000000 ) ) ;
#86 = APPROVAL_DATE_TIME ( #112, #66 ) ;
#87 = LOCAL_TIME ( 9, 13, 37.00000000000000000, #139 ) ;
#88 = AXIS2_PLACEMENT_3D ( 'NONE', #99, #60, #45 ) ;
#89 = DATE_AND_TIME ( #138, #87 ) ;
#90 = CLOSED_SHELL ( 'NONE', ( #109, #54, #19, #155 ) ) ;
#91 = DIRECTION ( 'NONE',  ( 1.000000000000000000, 0.0000000000000000000, -0.0000000000000000000 ) ) ;
#92 = CARTESIAN_POINT ( 'NONE',  ( 0.0000000000000000000, 0.0000000000000000000, 2.500000000000000000 ) ) ;
#93 = DIRECTION ( 'NONE',  ( 1.000000000000000000, 0.0000000000000000000, -0.0000000000000000000 ) ) ;
#94 = CARTESIAN_POINT ( 'NONE',  ( 6.500000000000000900, 0.0000000000000000000, 2.500000000000000000 ) ) ;
#95 = CALENDAR_DATE ( 2016, 12, 2 ) ;
#96 = DIRECTION ( 'NONE',  ( 0.0000000000000000000, 0.0000000000000000000, 1.000000000000000000 ) ) ;
#97 = PLANE ( 'NONE',  #46 ) ;
#98 = DIRECTION ( 'NONE',  ( -0.0000000000000000000, -0.0000000000000000000, -1.000000000000000000 ) ) ;
#99 = CARTESIAN_POINT ( 'NONE',  ( 0.0000000000000000000, 0.0000000000000000000, 0.0000000000000000000 ) ) ;
#100 = DIRECTION ( 'NONE',  ( 0.0000000000000000000, 0.0000000000000000000, 1.000000000000000000 ) ) ;
#101 = LOCAL_TIME ( 9, 13, 37.00000000000000000, #125 ) ;
#102 = DIRECTION ( 'NONE',  ( 1.000000000000000000, 0.0000000000000000000, 0.0000000000000000000 ) ) ;
#103 = DIRECTION ( 'NONE',  ( 0.0000000000000000000, 0.0000000000000000000, 1.000000000000000000 ) ) ;
#104 = UNCERTAINTY_MEASURE_WITH_UNIT (LENGTH_MEASURE( 1.000000000000000100E-005 ), #51, 'distance_accuracy_value', 'NONE');
#105 = CARTESIAN_POINT ( 'NONE',  ( 0.0000000000000000000, 0.0000000000000000000, 2.500000000000000000 ) ) ;
#106 = CARTESIAN_POINT ( 'NONE',  ( 0.0000000000000000000, 0.0000000000000000000, 2.500000000000000000 ) ) ;
#107 = DIRECTION ( 'NONE',  ( 1.000000000000000000, 0.0000000000000000000, 0.0000000000000000000 ) ) ;
#108 = CC_DESIGN_APPROVAL ( #166, ( #41 ) ) ;
#109 = ADVANCED_FACE ( 'NONE', ( #165, #57 ), #97, .T. ) ;
#110 = PERSON_AND_ORGANIZATION ( #56, #76 ) ;
#111 = DIRECTION ( 'NONE',  ( 1.000000000000000000, 0.0000000000000000000, 0.0000000000000000000 ) ) ;
#112 = DATE_AND_TIME ( #64, #101 ) ;
#113 = LOCAL_TIME ( 9, 13, 37.00000000000000000, #7 ) ;
#114 = CARTESIAN_POINT ( 'NONE',  ( 0.0000000000000000000, 0.0000000000000000000, 2.500000000000000000 ) ) ;
#115 = CARTESIAN_POINT ( 'NONE',  ( 0.0000000000000000000, 0.0000000000000000000, 0.0000000000000000000 ) ) ;
#116 = PRODUCT_DEFINITION ( 'UNKNOWN', '', #41, #73 ) ;
#117 = ORIENTED_EDGE ( 'NONE', *, *, #14, .T. ) ;
#118 = DIRECTION ( 'NONE',  ( 0.0000000000000000000, 0.0000000000000000000, 1.000000000000000000 ) ) ;
#119 = DIRECTION ( 'NONE',  ( -1.000000000000000000, 0.0000000000000000000, 0.0000000000000000000 ) ) ;
#120 = FACE_OUTER_BOUND ( 'NONE', #16, .T. ) ;
#121 = CARTESIAN_POINT ( 'NONE',  ( 6.500000000000000900, 0.0000000000000000000, 0.0000000000000000000 ) ) ;
#122 = CARTESIAN_POINT ( 'NONE',  ( 12.00000000000000200, 0.0000000000000000000, 0.0000000000000000000 ) ) ;
#123 = CARTESIAN_POINT ( 'NONE',  ( 0.0000000000000000000, 0.0000000000000000000, 2.500000000000000000 ) ) ;
#124 = EDGE_LOOP ( 'NONE', ( #148 ) ) ;
#125 = COORDINATED_UNIVERSAL_TIME_OFFSET ( 3, 0, .AHEAD. ) ;
#126 = DIRECTION ( 'NONE',  ( -0.0000000000000000000, -0.0000000000000000000, -1.000000000000000000 ) ) ;
#127 = DIRECTION ( 'NONE',  ( 1.000000000000000000, 0.0000000000000000000, 0.0000000000000000000 ) ) ;
#128 = CARTESIAN_POINT ( 'NONE',  ( 0.0000000000000000000, 0.0000000000000000000, 0.0000000000000000000 ) ) ;
#129 = PLANE ( 'NONE',  #69 ) ;
#130 = CARTESIAN_POINT ( 'NONE',  ( 0.0000000000000000000, 0.0000000000000000000, 0.0000000000000000000 ) ) ;
#131 = APPROVAL ( #38, 'UNSPECIFIED' ) ;
#132 = DIRECTION ( 'NONE',  ( -1.000000000000000000, 0.0000000000000000000, 0.0000000000000000000 ) ) ;
#133 = FACE_OUTER_BOUND ( 'NONE', #160, .T. ) ;
#134 = CC_DESIGN_PERSON_AND_ORGANIZATION_ASSIGNMENT ( #10, #31, ( #41 ) ) ;
#135 = CIRCLE ( 'NONE', #8, 6.500000000000000900 ) ;
#136 = APPROVAL_PERSON_ORGANIZATION ( #74, #66, #24 ) ;
#137 = MANIFOLD_SOLID_BREP ( 'Âûòÿíóòü1', #90 ) ;
#138 = CALENDAR_DATE ( 2016, 12, 2 ) ;
#139 = COORDINATED_UNIVERSAL_TIME_OFFSET ( 3, 0, .AHEAD. ) ;
#140 = APPROVAL_DATE_TIME ( #68, #131 ) ;
#141 = EDGE_LOOP ( 'NONE', ( #153 ) ) ;
#142 = LOCAL_TIME ( 9, 13, 37.00000000000000000, #30 ) ;
#143 = PERSON_AND_ORGANIZATION ( #56, #76 ) ;
#144 = CC_DESIGN_PERSON_AND_ORGANIZATION_ASSIGNMENT ( #159, #36, ( #116 ) ) ;
#145 = FACE_OUTER_BOUND ( 'NONE', #141, .T. ) ;
#146 = ADVANCED_BREP_SHAPE_REPRESENTATION ( 'CLP1M-SH-12 +ðùñð ÿûþ¸úð  M12', ( #137, #88 ), #22 ) ;
#147 = FACE_OUTER_BOUND ( 'NONE', #167, .T. ) ;
#148 = ORIENTED_EDGE ( 'NONE', *, *, #20, .T. ) ;
#149 = CC_DESIGN_DATE_AND_TIME_ASSIGNMENT ( #158, #35, ( #116 ) ) ;
#150 = EDGE_LOOP ( 'NONE', ( #162 ) ) ;
#151 = EDGE_LOOP ( 'NONE', ( #55 ) ) ;
#152 = ORIENTED_EDGE ( 'NONE', *, *, #47, .F. ) ;
#153 = ORIENTED_EDGE ( 'NONE', *, *, #14, .F. ) ;
#154 = CC_DESIGN_DATE_AND_TIME_ASSIGNMENT ( #84, #26, ( #32 ) ) ;
#155 = ADVANCED_FACE ( 'NONE', ( #120, #147 ), #80, .F. ) ;
#156 = PRODUCT_DEFINITION_SHAPE ( 'NONE', 'NONE',  #116 ) ;
#157 = APPROVAL_DATE_TIME ( #89, #166 ) ;
#158 = DATE_AND_TIME ( #71, #15 ) ;
#159 = PERSON_AND_ORGANIZATION ( #56, #76 ) ;
#160 = EDGE_LOOP ( 'NONE', ( #117 ) ) ;
#161 = FACE_OUTER_BOUND ( 'NONE', #151, .T. ) ;
#162 = ORIENTED_EDGE ( 'NONE', *, *, #23, .T. ) ;
#163 = CC_DESIGN_APPROVAL ( #131, ( #116 ) ) ;
#164 = APPROVAL_PERSON_ORGANIZATION ( #18, #131, #37 ) ;
#165 = FACE_OUTER_BOUND ( 'NONE', #150, .T. ) ;
#166 = APPROVAL ( #34, 'UNSPECIFIED' ) ;
#167 = EDGE_LOOP ( 'NONE', ( #58 ) ) ;
#168 = VERTEX_POINT ( 'NONE', #62 ) ;
#169 = VERTEX_POINT ( 'NONE', #94 ) ;
ENDSEC;
END-ISO-10303-21;
